ISO-10303-21;
HEADER;
FILE_DESCRIPTION (( 'STEP AP203' ),
    '1' );
FILE_NAME ('Spectral Black.STEP',
    '2017-10-16T10:53:51',
    ( '' ),
    ( '' ),
    'SwSTEP 2.0',
    'SolidWorks 2016',
    '' );
FILE_SCHEMA (( 'CONFIG_CONTROL_DESIGN' ));
ENDSEC;

DATA;
#1 = APPROVAL_DATE_TIME ( #79, #96 ) ;
#2 = PERSON ( 'UNSPECIFIED', 'UNSPECIFIED', 'UNSPECIFIED', ('UNSPECIFIED'), ('UNSPECIFIED'), ('UNSPECIFIED') ) ;
#3 = SHAPE_DEFINITION_REPRESENTATION ( #88, #32 ) ;
#4 = CC_DESIGN_DATE_AND_TIME_ASSIGNMENT ( #164, #77, ( #147 ) ) ;
#5 = AXIS2_PLACEMENT_3D ( 'NONE', #75, #103, #21 ) ;
#6 = DIRECTION ( 'NONE',  ( -0.0000000000000000000, -0.0000000000000000000, -1.000000000000000000 ) ) ;
#7 = PRODUCT_RELATED_PRODUCT_CATEGORY ( 'detail', '', ( #54 ) ) ;
#8 = DIRECTION ( 'NONE',  ( 1.000000000000000000, 0.0000000000000000000, 0.0000000000000000000 ) ) ;
#9 = DIRECTION ( 'NONE',  ( -1.000000000000000000, 0.0000000000000000000, 0.0000000000000000000 ) ) ;
#10 = DATE_TIME_ROLE ( 'classification_date' ) ;
#11 = CC_DESIGN_PERSON_AND_ORGANIZATION_ASSIGNMENT ( #135, #90, ( #147 ) ) ;
#12 = APPROVAL_ROLE ( '' ) ;
#13 = DIRECTION ( 'NONE',  ( 1.000000000000000000, 0.0000000000000000000, 0.0000000000000000000 ) ) ;
#14 = CLOSED_SHELL ( 'NONE', ( #37, #94, #51, #82 ) ) ;
#15 = AXIS2_PLACEMENT_3D ( 'NONE', #58, #109, #8 ) ;
#16 = EDGE_LOOP ( 'NONE', ( #60, #39 ) ) ;
#17 = DESIGN_CONTEXT ( 'detailed design', #156, 'design' ) ;
#18 = COORDINATED_UNIVERSAL_TIME_OFFSET ( 2, 0, .AHEAD. ) ;
#19 =( GEOMETRIC_REPRESENTATION_CONTEXT ( 3 ) GLOBAL_UNCERTAINTY_ASSIGNED_CONTEXT ( ( #42 ) ) GLOBAL_UNIT_ASSIGNED_CONTEXT ( ( #34, #35, #68 ) ) REPRESENTATION_CONTEXT ( 'NONE', 'WORKASPACE' ) );
#20 = DIRECTION ( 'NONE',  ( 1.000000000000000000, 0.0000000000000000000, 0.0000000000000000000 ) ) ;
#21 = DIRECTION ( 'NONE',  ( 1.000000000000000000, 0.0000000000000000000, 0.0000000000000000000 ) ) ;
#22 = VECTOR ( 'NONE', #167, 1000.000000000000000 ) ;
#23 = APPROVAL_STATUS ( 'not_yet_approved' ) ;
#24 = MECHANICAL_CONTEXT ( 'NONE', #91, 'mechanical' ) ;
#25 = CALENDAR_DATE ( 2017, 16, 10 ) ;
#26 = PERSON_AND_ORGANIZATION ( #2, #29 ) ;
#27 = PERSON_AND_ORGANIZATION_ROLE ( 'design_owner' ) ;
#28 = ORIENTED_EDGE ( 'NONE', *, *, #139, .T. ) ;
#29 = ORGANIZATION ( 'UNSPECIFIED', 'UNSPECIFIED', '' ) ;
#30 = AXIS2_PLACEMENT_3D ( 'NONE', #43, #56, #45 ) ;
#31 = PRODUCT_DEFINITION_FORMATION_WITH_SPECIFIED_SOURCE ( 'ANY', '', #54, .NOT_KNOWN. ) ;
#32 = ADVANCED_BREP_SHAPE_REPRESENTATION ( 'Spectral Black', ( #136, #55 ), #19 ) ;
#33 = APPROVAL_PERSON_ORGANIZATION ( #76, #46, #130 ) ;
#34 =( LENGTH_UNIT ( ) NAMED_UNIT ( * ) SI_UNIT ( .MILLI., .METRE. ) );
#35 =( NAMED_UNIT ( * ) PLANE_ANGLE_UNIT ( ) SI_UNIT ( $, .RADIAN. ) );
#36 = SECURITY_CLASSIFICATION_LEVEL ( 'unclassified' ) ;
#37 = ADVANCED_FACE ( 'NONE', ( #157 ), #174, .T. ) ;
#38 = AXIS2_PLACEMENT_3D ( 'NONE', #132, #154, #13 ) ;
#39 = ORIENTED_EDGE ( 'NONE', *, *, #71, .F. ) ;
#40 = ORIENTED_EDGE ( 'NONE', *, *, #61, .F. ) ;
#41 = SECURITY_CLASSIFICATION ( '', '', #36 ) ;
#42 = UNCERTAINTY_MEASURE_WITH_UNIT (LENGTH_MEASURE( 1.000000000000000100E-005 ), #34, 'distance_accuracy_value', 'NONE');
#43 = CARTESIAN_POINT ( 'NONE',  ( 0.0000000000000000000, 0.0000000000000000000, 0.0000000000000000000 ) ) ;
#44 = COORDINATED_UNIVERSAL_TIME_OFFSET ( 2, 0, .AHEAD. ) ;
#45 = DIRECTION ( 'NONE',  ( 1.000000000000000000, 0.0000000000000000000, -0.0000000000000000000 ) ) ;
#46 = APPROVAL ( #78, 'UNSPECIFIED' ) ;
#47 = CARTESIAN_POINT ( 'NONE',  ( 0.0000000000000000000, 0.0000000000000000000, 1.000000000000000900 ) ) ;
#48 = AXIS2_PLACEMENT_3D ( 'NONE', #100, #166, #140 ) ;
#49 = VERTEX_POINT ( 'NONE', #170 ) ;
#50 = PERSON_AND_ORGANIZATION_ROLE ( 'creator' ) ;
#51 = ADVANCED_FACE ( 'NONE', ( #99 ), #152, .T. ) ;
#52 = CC_DESIGN_PERSON_AND_ORGANIZATION_ASSIGNMENT ( #124, #66, ( #41 ) ) ;
#53 = EDGE_LOOP ( 'NONE', ( #142, #28 ) ) ;
#54 = PRODUCT ( 'Spectral Black', 'Spectral Black', '', ( #24 ) ) ;
#55 = AXIS2_PLACEMENT_3D ( 'NONE', #150, #134, #131 ) ;
#56 = DIRECTION ( 'NONE',  ( 0.0000000000000000000, 0.0000000000000000000, 1.000000000000000000 ) ) ;
#57 = AXIS2_PLACEMENT_3D ( 'NONE', #116, #6, #9 ) ;
#58 = CARTESIAN_POINT ( 'NONE',  ( 0.0000000000000000000, 0.0000000000000000000, 0.0000000000000000000 ) ) ;
#59 = PERSON_AND_ORGANIZATION ( #2, #29 ) ;
#60 = ORIENTED_EDGE ( 'NONE', *, *, #101, .F. ) ;
#61 = EDGE_CURVE ( 'NONE', #67, #126, #111, .T. ) ;
#62 = CC_DESIGN_PERSON_AND_ORGANIZATION_ASSIGNMENT ( #59, #50, ( #31 ) ) ;
#63 = CALENDAR_DATE ( 2017, 16, 10 ) ;
#64 = CARTESIAN_POINT ( 'NONE',  ( -12.50000000000000000, 0.0000000000000000000, 1.000000000000000900 ) ) ;
#65 = CIRCLE ( 'NONE', #15, 12.50000000000000000 ) ;
#66 = PERSON_AND_ORGANIZATION_ROLE ( 'classification_officer' ) ;
#67 = VERTEX_POINT ( 'NONE', #64 ) ;
#68 =( NAMED_UNIT ( * ) SI_UNIT ( $, .STERADIAN. ) SOLID_ANGLE_UNIT ( ) );
#69 = AXIS2_PLACEMENT_3D ( 'NONE', #128, #118, #102 ) ;
#70 = LOCAL_TIME ( 13, 53, 51.00000000000000000, #146 ) ;
#71 = EDGE_CURVE ( 'NONE', #49, #114, #65, .T. ) ;
#72 = APPROVAL_DATE_TIME ( #143, #127 ) ;
#73 = CARTESIAN_POINT ( 'NONE',  ( -12.50000000000000000, 0.0000000000000000000, 1.000000000000000900 ) ) ;
#74 = CALENDAR_DATE ( 2017, 16, 10 ) ;
#75 = CARTESIAN_POINT ( 'NONE',  ( 0.0000000000000000000, 0.0000000000000000000, 0.0000000000000000000 ) ) ;
#76 = PERSON_AND_ORGANIZATION ( #2, #29 ) ;
#77 = DATE_TIME_ROLE ( 'creation_date' ) ;
#78 = APPROVAL_STATUS ( 'not_yet_approved' ) ;
#79 = DATE_AND_TIME ( #74, #105 ) ;
#80 = PERSON_AND_ORGANIZATION ( #2, #29 ) ;
#81 = EDGE_LOOP ( 'NONE', ( #165, #107, #121, #93 ) ) ;
#82 = ADVANCED_FACE ( 'NONE', ( #129 ), #98, .F. ) ;
#83 = EDGE_CURVE ( 'NONE', #67, #114, #133, .T. ) ;
#84 = CC_DESIGN_APPROVAL ( #127, ( #147 ) ) ;
#85 = ORIENTED_EDGE ( 'NONE', *, *, #101, .T. ) ;
#86 = CARTESIAN_POINT ( 'NONE',  ( 12.50000000000000000, 1.530808498934191500E-015, 1.000000000000000900 ) ) ;
#87 = DIRECTION ( 'NONE',  ( -0.0000000000000000000, -0.0000000000000000000, -1.000000000000000000 ) ) ;
#88 = PRODUCT_DEFINITION_SHAPE ( 'NONE', 'NONE',  #147 ) ;
#89 = APPROVAL_PERSON_ORGANIZATION ( #80, #96, #12 ) ;
#90 = PERSON_AND_ORGANIZATION_ROLE ( 'creator' ) ;
#91 = APPLICATION_CONTEXT ( 'configuration controlled 3d designs of mechanical parts and assemblies' ) ;
#92 = APPROVAL_PERSON_ORGANIZATION ( #125, #127, #145 ) ;
#93 = ORIENTED_EDGE ( 'NONE', *, *, #83, .F. ) ;
#94 = ADVANCED_FACE ( 'NONE', ( #106 ), #97, .T. ) ;
#95 = CIRCLE ( 'NONE', #38, 12.50000000000000000 ) ;
#96 = APPROVAL ( #23, 'UNSPECIFIED' ) ;
#97 = CYLINDRICAL_SURFACE ( 'NONE', #57, 12.50000000000000000 ) ;
#98 = PLANE ( 'NONE',  #30 ) ;
#99 = FACE_OUTER_BOUND ( 'NONE', #53, .T. ) ;
#100 = CARTESIAN_POINT ( 'NONE',  ( 0.0000000000000000000, 0.0000000000000000000, 1.000000000000000900 ) ) ;
#101 = EDGE_CURVE ( 'NONE', #114, #49, #162, .T. ) ;
#102 = DIRECTION ( 'NONE',  ( -1.000000000000000000, 0.0000000000000000000, 0.0000000000000000000 ) ) ;
#103 = DIRECTION ( 'NONE',  ( 0.0000000000000000000, 0.0000000000000000000, 1.000000000000000000 ) ) ;
#104 = CC_DESIGN_PERSON_AND_ORGANIZATION_ASSIGNMENT ( #26, #27, ( #54 ) ) ;
#105 = LOCAL_TIME ( 13, 53, 51.00000000000000000, #144 ) ;
#106 = FACE_OUTER_BOUND ( 'NONE', #108, .T. ) ;
#107 = ORIENTED_EDGE ( 'NONE', *, *, #159, .T. ) ;
#108 = EDGE_LOOP ( 'NONE', ( #115, #40, #149, #85 ) ) ;
#109 = DIRECTION ( 'NONE',  ( 0.0000000000000000000, 0.0000000000000000000, 1.000000000000000000 ) ) ;
#110 = CARTESIAN_POINT ( 'NONE',  ( -12.50000000000000000, 0.0000000000000000000, 0.0000000000000000000 ) ) ;
#111 = CIRCLE ( 'NONE', #148, 12.50000000000000000 ) ;
#112 = CC_DESIGN_PERSON_AND_ORGANIZATION_ASSIGNMENT ( #161, #158, ( #31 ) ) ;
#113 = APPROVAL_DATE_TIME ( #163, #46 ) ;
#114 = VERTEX_POINT ( 'NONE', #110 ) ;
#115 = ORIENTED_EDGE ( 'NONE', *, *, #159, .F. ) ;
#116 = CARTESIAN_POINT ( 'NONE',  ( 0.0000000000000000000, 0.0000000000000000000, 1.000000000000000900 ) ) ;
#117 = CALENDAR_DATE ( 2017, 16, 10 ) ;
#118 = DIRECTION ( 'NONE',  ( -0.0000000000000000000, -0.0000000000000000000, -1.000000000000000000 ) ) ;
#119 = LOCAL_TIME ( 13, 53, 51.00000000000000000, #44 ) ;
#120 = CC_DESIGN_SECURITY_CLASSIFICATION ( #41, ( #31 ) ) ;
#121 = ORIENTED_EDGE ( 'NONE', *, *, #71, .T. ) ;
#122 = LINE ( 'NONE', #86, #160 ) ;
#123 = CARTESIAN_POINT ( 'NONE',  ( 12.50000000000000000, 1.530808498934191500E-015, 1.000000000000000900 ) ) ;
#124 = PERSON_AND_ORGANIZATION ( #2, #29 ) ;
#125 = PERSON_AND_ORGANIZATION ( #2, #29 ) ;
#126 = VERTEX_POINT ( 'NONE', #123 ) ;
#127 = APPROVAL ( #173, 'UNSPECIFIED' ) ;
#128 = CARTESIAN_POINT ( 'NONE',  ( 0.0000000000000000000, 0.0000000000000000000, 1.000000000000000900 ) ) ;
#129 = FACE_OUTER_BOUND ( 'NONE', #16, .T. ) ;
#130 = APPROVAL_ROLE ( '' ) ;
#131 = DIRECTION ( 'NONE',  ( 1.000000000000000000, 0.0000000000000000000, 0.0000000000000000000 ) ) ;
#132 = CARTESIAN_POINT ( 'NONE',  ( 0.0000000000000000000, 0.0000000000000000000, 1.000000000000000900 ) ) ;
#133 = LINE ( 'NONE', #73, #22 ) ;
#134 = DIRECTION ( 'NONE',  ( 0.0000000000000000000, 0.0000000000000000000, 1.000000000000000000 ) ) ;
#135 = PERSON_AND_ORGANIZATION ( #2, #29 ) ;
#136 = MANIFOLD_SOLID_BREP ( 'Boss-Extrude1', #14 ) ;
#137 = CC_DESIGN_DATE_AND_TIME_ASSIGNMENT ( #151, #10, ( #41 ) ) ;
#138 = LOCAL_TIME ( 13, 53, 51.00000000000000000, #175 ) ;
#139 = EDGE_CURVE ( 'NONE', #126, #67, #95, .T. ) ;
#140 = DIRECTION ( 'NONE',  ( 1.000000000000000000, 0.0000000000000000000, -0.0000000000000000000 ) ) ;
#141 = LOCAL_TIME ( 13, 53, 51.00000000000000000, #18 ) ;
#142 = ORIENTED_EDGE ( 'NONE', *, *, #61, .T. ) ;
#143 = DATE_AND_TIME ( #169, #141 ) ;
#144 = COORDINATED_UNIVERSAL_TIME_OFFSET ( 2, 0, .AHEAD. ) ;
#145 = APPROVAL_ROLE ( '' ) ;
#146 = COORDINATED_UNIVERSAL_TIME_OFFSET ( 2, 0, .AHEAD. ) ;
#147 = PRODUCT_DEFINITION ( 'UNKNOWN', '', #31, #17 ) ;
#148 = AXIS2_PLACEMENT_3D ( 'NONE', #47, #168, #20 ) ;
#149 = ORIENTED_EDGE ( 'NONE', *, *, #83, .T. ) ;
#150 = CARTESIAN_POINT ( 'NONE',  ( 0.0000000000000000000, 0.0000000000000000000, 0.0000000000000000000 ) ) ;
#151 = DATE_AND_TIME ( #63, #138 ) ;
#152 = PLANE ( 'NONE',  #48 ) ;
#153 = APPLICATION_PROTOCOL_DEFINITION ( 'international standard', 'config_control_design', 1994, #156 ) ;
#154 = DIRECTION ( 'NONE',  ( 0.0000000000000000000, 0.0000000000000000000, 1.000000000000000000 ) ) ;
#155 = CC_DESIGN_APPROVAL ( #46, ( #41 ) ) ;
#156 = APPLICATION_CONTEXT ( 'configuration controlled 3d designs of mechanical parts and assemblies' ) ;
#157 = FACE_OUTER_BOUND ( 'NONE', #81, .T. ) ;
#158 = PERSON_AND_ORGANIZATION_ROLE ( 'design_supplier' ) ;
#159 = EDGE_CURVE ( 'NONE', #126, #49, #122, .T. ) ;
#160 = VECTOR ( 'NONE', #87, 1000.000000000000000 ) ;
#161 = PERSON_AND_ORGANIZATION ( #2, #29 ) ;
#162 = CIRCLE ( 'NONE', #5, 12.50000000000000000 ) ;
#163 = DATE_AND_TIME ( #117, #119 ) ;
#164 = DATE_AND_TIME ( #25, #70 ) ;
#165 = ORIENTED_EDGE ( 'NONE', *, *, #139, .F. ) ;
#166 = DIRECTION ( 'NONE',  ( 0.0000000000000000000, 0.0000000000000000000, 1.000000000000000000 ) ) ;
#167 = DIRECTION ( 'NONE',  ( -0.0000000000000000000, -0.0000000000000000000, -1.000000000000000000 ) ) ;
#168 = DIRECTION ( 'NONE',  ( 0.0000000000000000000, 0.0000000000000000000, 1.000000000000000000 ) ) ;
#169 = CALENDAR_DATE ( 2017, 16, 10 ) ;
#170 = CARTESIAN_POINT ( 'NONE',  ( 12.50000000000000000, 1.530808498934191500E-015, 0.0000000000000000000 ) ) ;
#171 = CC_DESIGN_APPROVAL ( #96, ( #31 ) ) ;
#172 = APPLICATION_PROTOCOL_DEFINITION ( 'international standard', 'config_control_design', 1994, #91 ) ;
#173 = APPROVAL_STATUS ( 'not_yet_approved' ) ;
#174 = CYLINDRICAL_SURFACE ( 'NONE', #69, 12.50000000000000000 ) ;
#175 = COORDINATED_UNIVERSAL_TIME_OFFSET ( 2, 0, .AHEAD. ) ;
ENDSEC;
END-ISO-10303-21;
