ISO-10303-21;
HEADER;
FILE_DESCRIPTION (( 'STEP AP203' ),
    '1' );
FILE_NAME ('Metal Velvet.STEP',
    '2017-10-16T11:16:13',
    ( '' ),
    ( '' ),
    'SwSTEP 2.0',
    'SolidWorks 2016',
    '' );
FILE_SCHEMA (( 'CONFIG_CONTROL_DESIGN' ));
ENDSEC;

DATA;
#1 = ORIENTED_EDGE ( 'NONE', *, *, #70, .T. ) ;
#2 = PLANE ( 'NONE',  #81 ) ;
#3 = ADVANCED_FACE ( 'NONE', ( #148 ), #2, .F. ) ;
#4 = MECHANICAL_CONTEXT ( 'NONE', #181, 'mechanical' ) ;
#5 = CARTESIAN_POINT ( 'NONE',  ( 12.49999999999999300, -12.50000000000000400, 0.0000000000000000000 ) ) ;
#6 = ORIENTED_EDGE ( 'NONE', *, *, #207, .F. ) ;
#7 = CARTESIAN_POINT ( 'NONE',  ( 12.49999999999999300, 12.49999999999999600, 1.000000000000000000 ) ) ;
#8 = DIRECTION ( 'NONE',  ( 1.000000000000000000, 0.0000000000000000000, 0.0000000000000000000 ) ) ;
#9 = PERSON ( 'UNSPECIFIED', 'UNSPECIFIED', 'UNSPECIFIED', ('UNSPECIFIED'), ('UNSPECIFIED'), ('UNSPECIFIED') ) ;
#10 = LINE ( 'NONE', #41, #45 ) ;
#11 = COORDINATED_UNIVERSAL_TIME_OFFSET ( 2, 0, .AHEAD. ) ;
#12 = FACE_OUTER_BOUND ( 'NONE', #178, .T. ) ;
#13 = FACE_OUTER_BOUND ( 'NONE', #104, .T. ) ;
#14 = VERTEX_POINT ( 'NONE', #158 ) ;
#15 = CARTESIAN_POINT ( 'NONE',  ( 12.49999999999999300, 12.49999999999999600, 1.000000000000000000 ) ) ;
#16 = VECTOR ( 'NONE', #96, 1000.000000000000000 ) ;
#17 = CARTESIAN_POINT ( 'NONE',  ( -12.50000000000000700, -12.50000000000000400, 1.000000000000000000 ) ) ;
#18 = DIRECTION ( 'NONE',  ( -1.000000000000000000, 0.0000000000000000000, -0.0000000000000000000 ) ) ;
#19 = COORDINATED_UNIVERSAL_TIME_OFFSET ( 2, 0, .AHEAD. ) ;
#20 = DIRECTION ( 'NONE',  ( 1.000000000000000000, 0.0000000000000000000, 0.0000000000000000000 ) ) ;
#21 = ORIENTED_EDGE ( 'NONE', *, *, #221, .T. ) ;
#22 = CARTESIAN_POINT ( 'NONE',  ( 12.49999999999999300, 12.49999999999999600, 0.0000000000000000000 ) ) ;
#23 = DIRECTION ( 'NONE',  ( -0.0000000000000000000, -0.0000000000000000000, -1.000000000000000000 ) ) ;
#24 = APPROVAL_ROLE ( '' ) ;
#25 = APPROVAL_PERSON_ORGANIZATION ( #160, #176, #200 ) ;
#26 = ORIENTED_EDGE ( 'NONE', *, *, #153, .F. ) ;
#27 = LINE ( 'NONE', #139, #16 ) ;
#28 = APPROVAL ( #89, 'UNSPECIFIED' ) ;
#29 = APPROVAL_PERSON_ORGANIZATION ( #219, #28, #24 ) ;
#30 = VERTEX_POINT ( 'NONE', #17 ) ;
#31 = DIRECTION ( 'NONE',  ( 0.0000000000000000000, 1.000000000000000000, 0.0000000000000000000 ) ) ;
#32 = ORIENTED_EDGE ( 'NONE', *, *, #227, .F. ) ;
#33 = PLANE ( 'NONE',  #177 ) ;
#34 = FACE_OUTER_BOUND ( 'NONE', #186, .T. ) ;
#35 = APPLICATION_PROTOCOL_DEFINITION ( 'international standard', 'config_control_design', 1994, #181 ) ;
#36 = CARTESIAN_POINT ( 'NONE',  ( -12.50000000000000700, 12.49999999999999600, 0.0000000000000000000 ) ) ;
#37 = CC_DESIGN_PERSON_AND_ORGANIZATION_ASSIGNMENT ( #59, #132, ( #55 ) ) ;
#38 =( LENGTH_UNIT ( ) NAMED_UNIT ( * ) SI_UNIT ( .MILLI., .METRE. ) );
#39 = EDGE_CURVE ( 'NONE', #152, #14, #27, .T. ) ;
#40 = LOCAL_TIME ( 14, 16, 13.00000000000000000, #94 ) ;
#41 = CARTESIAN_POINT ( 'NONE',  ( -12.50000000000000700, 12.49999999999999600, 1.000000000000000000 ) ) ;
#42 = EDGE_LOOP ( 'NONE', ( #214, #174, #157, #192 ) ) ;
#43 = ADVANCED_FACE ( 'NONE', ( #84 ), #224, .T. ) ;
#44 = COORDINATED_UNIVERSAL_TIME_OFFSET ( 2, 0, .AHEAD. ) ;
#45 = VECTOR ( 'NONE', #101, 1000.000000000000000 ) ;
#46 = SECURITY_CLASSIFICATION_LEVEL ( 'unclassified' ) ;
#47 = ORIENTED_EDGE ( 'NONE', *, *, #109, .F. ) ;
#48 = EDGE_CURVE ( 'NONE', #95, #189, #65, .T. ) ;
#49 = VECTOR ( 'NONE', #80, 1000.000000000000000 ) ;
#50 = DATE_AND_TIME ( #141, #175 ) ;
#51 = DATE_AND_TIME ( #187, #164 ) ;
#52 = VERTEX_POINT ( 'NONE', #15 ) ;
#53 = AXIS2_PLACEMENT_3D ( 'NONE', #124, #213, #8 ) ;
#54 = DIRECTION ( 'NONE',  ( -1.000000000000000000, 0.0000000000000000000, 0.0000000000000000000 ) ) ;
#55 = SECURITY_CLASSIFICATION ( '', '', #46 ) ;
#56 = LINE ( 'NONE', #5, #168 ) ;
#57 = CC_DESIGN_APPROVAL ( #28, ( #183 ) ) ;
#58 = CARTESIAN_POINT ( 'NONE',  ( -12.50000000000000700, 12.49999999999999600, 1.000000000000000000 ) ) ;
#59 = PERSON_AND_ORGANIZATION ( #9, #188 ) ;
#60 = VECTOR ( 'NONE', #31, 1000.000000000000000 ) ;
#61 = CARTESIAN_POINT ( 'NONE',  ( 12.49999999999999300, -12.50000000000000400, 0.0000000000000000000 ) ) ;
#62 = CARTESIAN_POINT ( 'NONE',  ( -12.50000000000000700, -12.50000000000000400, 0.0000000000000000000 ) ) ;
#63 = ADVANCED_FACE ( 'NONE', ( #34 ), #33, .F. ) ;
#64 = APPLICATION_PROTOCOL_DEFINITION ( 'international standard', 'config_control_design', 1994, #194 ) ;
#65 = LINE ( 'NONE', #77, #92 ) ;
#66 = DATE_TIME_ROLE ( 'creation_date' ) ;
#67 = PERSON_AND_ORGANIZATION ( #9, #188 ) ;
#68 = DATE_TIME_ROLE ( 'classification_date' ) ;
#69 = PRODUCT ( 'Metal Velvet', 'Metal Velvet', '', ( #4 ) ) ;
#70 = EDGE_CURVE ( 'NONE', #30, #95, #171, .T. ) ;
#71 = ORIENTED_EDGE ( 'NONE', *, *, #126, .F. ) ;
#72 = CC_DESIGN_PERSON_AND_ORGANIZATION_ASSIGNMENT ( #67, #110, ( #183 ) ) ;
#73 = ORIENTED_EDGE ( 'NONE', *, *, #207, .T. ) ;
#74 = ORIENTED_EDGE ( 'NONE', *, *, #70, .F. ) ;
#75 = EDGE_CURVE ( 'NONE', #136, #52, #210, .T. ) ;
#76 = ADVANCED_FACE ( 'NONE', ( #12 ), #211, .F. ) ;
#77 = CARTESIAN_POINT ( 'NONE',  ( -12.50000000000000700, -12.50000000000000400, 0.0000000000000000000 ) ) ;
#78 = LOCAL_TIME ( 14, 16, 13.00000000000000000, #44 ) ;
#79 = ORIENTED_EDGE ( 'NONE', *, *, #75, .T. ) ;
#80 = DIRECTION ( 'NONE',  ( -0.0000000000000000000, -0.0000000000000000000, -1.000000000000000000 ) ) ;
#81 = AXIS2_PLACEMENT_3D ( 'NONE', #140, #54, #159 ) ;
#82 = DIRECTION ( 'NONE',  ( 0.0000000000000000000, 0.0000000000000000000, -1.000000000000000000 ) ) ;
#83 = MANIFOLD_SOLID_BREP ( 'Boss-Extrude1', #128 ) ;
#84 = FACE_OUTER_BOUND ( 'NONE', #42, .T. ) ;
#85 = CARTESIAN_POINT ( 'NONE',  ( -12.50000000000000700, -12.50000000000000400, 0.0000000000000000000 ) ) ;
#86 = PRODUCT_RELATED_PRODUCT_CATEGORY ( 'detail', '', ( #69 ) ) ;
#87 = AXIS2_PLACEMENT_3D ( 'NONE', #145, #20, #82 ) ;
#88 = ORIENTED_EDGE ( 'NONE', *, *, #116, .T. ) ;
#89 = APPROVAL_STATUS ( 'not_yet_approved' ) ;
#90 = CC_DESIGN_DATE_AND_TIME_ASSIGNMENT ( #185, #66, ( #183 ) ) ;
#91 = VECTOR ( 'NONE', #99, 1000.000000000000000 ) ;
#92 = VECTOR ( 'NONE', #120, 1000.000000000000000 ) ;
#93 = DESIGN_CONTEXT ( 'detailed design', #194, 'design' ) ;
#94 = COORDINATED_UNIVERSAL_TIME_OFFSET ( 2, 0, .AHEAD. ) ;
#95 = VERTEX_POINT ( 'NONE', #85 ) ;
#96 = DIRECTION ( 'NONE',  ( -0.0000000000000000000, -0.0000000000000000000, -1.000000000000000000 ) ) ;
#97 = LINE ( 'NONE', #7, #49 ) ;
#98 = ADVANCED_BREP_SHAPE_REPRESENTATION ( 'Metal Velvet', ( #83, #53 ), #121 ) ;
#99 = DIRECTION ( 'NONE',  ( -0.0000000000000000000, -1.000000000000000000, -0.0000000000000000000 ) ) ;
#100 = AXIS2_PLACEMENT_3D ( 'NONE', #163, #103, #232 ) ;
#101 = DIRECTION ( 'NONE',  ( -1.000000000000000000, -0.0000000000000000000, -0.0000000000000000000 ) ) ;
#102 = LOCAL_TIME ( 14, 16, 13.00000000000000000, #19 ) ;
#103 = DIRECTION ( 'NONE',  ( 0.0000000000000000000, 1.000000000000000000, 0.0000000000000000000 ) ) ;
#104 = EDGE_LOOP ( 'NONE', ( #79, #119, #73, #138 ) ) ;
#105 =( NAMED_UNIT ( * ) PLANE_ANGLE_UNIT ( ) SI_UNIT ( $, .RADIAN. ) );
#106 = ADVANCED_FACE ( 'NONE', ( #115 ), #149, .F. ) ;
#107 = DIRECTION ( 'NONE',  ( -1.000000000000000000, 0.0000000000000000000, -0.0000000000000000000 ) ) ;
#108 = PRODUCT_DEFINITION_SHAPE ( 'NONE', 'NONE',  #183 ) ;
#109 = EDGE_CURVE ( 'NONE', #136, #189, #161, .T. ) ;
#110 = PERSON_AND_ORGANIZATION_ROLE ( 'creator' ) ;
#111 = VECTOR ( 'NONE', #162, 1000.000000000000000 ) ;
#112 = APPROVAL_STATUS ( 'not_yet_approved' ) ;
#113 = CC_DESIGN_DATE_AND_TIME_ASSIGNMENT ( #50, #68, ( #55 ) ) ;
#114 = ORIENTED_EDGE ( 'NONE', *, *, #167, .T. ) ;
#115 = FACE_OUTER_BOUND ( 'NONE', #220, .T. ) ;
#116 = EDGE_CURVE ( 'NONE', #236, #14, #237, .T. ) ;
#117 = PRODUCT_DEFINITION_FORMATION_WITH_SPECIFIED_SOURCE ( 'ANY', '', #69, .NOT_KNOWN. ) ;
#118 = VECTOR ( 'NONE', #23, 1000.000000000000000 ) ;
#119 = ORIENTED_EDGE ( 'NONE', *, *, #153, .T. ) ;
#120 = DIRECTION ( 'NONE',  ( 1.000000000000000000, 0.0000000000000000000, 0.0000000000000000000 ) ) ;
#121 =( GEOMETRIC_REPRESENTATION_CONTEXT ( 3 ) GLOBAL_UNCERTAINTY_ASSIGNED_CONTEXT ( ( #169 ) ) GLOBAL_UNIT_ASSIGNED_CONTEXT ( ( #38, #105, #127 ) ) REPRESENTATION_CONTEXT ( 'NONE', 'WORKASPACE' ) );
#122 = CARTESIAN_POINT ( 'NONE',  ( 0.0000000000000000000, 0.0000000000000000000, 1.000000000000000000 ) ) ;
#123 = EDGE_LOOP ( 'NONE', ( #114, #71, #180, #215 ) ) ;
#124 = CARTESIAN_POINT ( 'NONE',  ( 0.0000000000000000000, 0.0000000000000000000, 0.0000000000000000000 ) ) ;
#125 = DIRECTION ( 'NONE',  ( -0.0000000000000000000, -0.0000000000000000000, -1.000000000000000000 ) ) ;
#126 = EDGE_CURVE ( 'NONE', #52, #236, #97, .T. ) ;
#127 =( NAMED_UNIT ( * ) SI_UNIT ( $, .STERADIAN. ) SOLID_ANGLE_UNIT ( ) );
#128 = CLOSED_SHELL ( 'NONE', ( #3, #63, #76, #106, #166, #43 ) ) ;
#129 = PERSON_AND_ORGANIZATION_ROLE ( 'design_supplier' ) ;
#130 = COORDINATED_UNIVERSAL_TIME_OFFSET ( 2, 0, .AHEAD. ) ;
#131 = LINE ( 'NONE', #195, #223 ) ;
#132 = PERSON_AND_ORGANIZATION_ROLE ( 'classification_officer' ) ;
#133 = APPROVAL ( #112, 'UNSPECIFIED' ) ;
#134 = APPROVAL_DATE_TIME ( #222, #133 ) ;
#135 = ORIENTED_EDGE ( 'NONE', *, *, #39, .T. ) ;
#136 = VERTEX_POINT ( 'NONE', #144 ) ;
#137 = APPROVAL_DATE_TIME ( #51, #28 ) ;
#138 = ORIENTED_EDGE ( 'NONE', *, *, #227, .T. ) ;
#139 = CARTESIAN_POINT ( 'NONE',  ( -12.50000000000000700, 12.49999999999999600, 1.000000000000000000 ) ) ;
#140 = CARTESIAN_POINT ( 'NONE',  ( 12.49999999999999300, -12.50000000000000400, 1.000000000000000000 ) ) ;
#141 = CALENDAR_DATE ( 2017, 16, 10 ) ;
#142 = DIRECTION ( 'NONE',  ( 0.0000000000000000000, -0.0000000000000000000, -1.000000000000000000 ) ) ;
#143 = CC_DESIGN_APPROVAL ( #133, ( #117 ) ) ;
#144 = CARTESIAN_POINT ( 'NONE',  ( 12.49999999999999300, -12.50000000000000400, 1.000000000000000000 ) ) ;
#145 = CARTESIAN_POINT ( 'NONE',  ( -12.50000000000000700, -12.50000000000000400, 1.000000000000000000 ) ) ;
#146 = CALENDAR_DATE ( 2017, 16, 10 ) ;
#147 = LINE ( 'NONE', #62, #91 ) ;
#148 = FACE_OUTER_BOUND ( 'NONE', #123, .T. ) ;
#149 = PLANE ( 'NONE',  #100 ) ;
#150 = APPROVAL_ROLE ( '' ) ;
#151 = APPROVAL_PERSON_ORGANIZATION ( #196, #133, #150 ) ;
#152 = VERTEX_POINT ( 'NONE', #58 ) ;
#153 = EDGE_CURVE ( 'NONE', #52, #152, #10, .T. ) ;
#154 = VECTOR ( 'NONE', #198, 1000.000000000000000 ) ;
#155 = AXIS2_PLACEMENT_3D ( 'NONE', #225, #226, #18 ) ;
#156 = CC_DESIGN_PERSON_AND_ORGANIZATION_ASSIGNMENT ( #206, #179, ( #69 ) ) ;
#157 = ORIENTED_EDGE ( 'NONE', *, *, #221, .F. ) ;
#158 = CARTESIAN_POINT ( 'NONE',  ( -12.50000000000000700, 12.49999999999999600, 0.0000000000000000000 ) ) ;
#159 = DIRECTION ( 'NONE',  ( 0.0000000000000000000, 0.0000000000000000000, 1.000000000000000000 ) ) ;
#160 = PERSON_AND_ORGANIZATION ( #9, #188 ) ;
#161 = LINE ( 'NONE', #209, #203 ) ;
#162 = DIRECTION ( 'NONE',  ( -1.000000000000000000, -0.0000000000000000000, -0.0000000000000000000 ) ) ;
#163 = CARTESIAN_POINT ( 'NONE',  ( -12.50000000000000700, -12.50000000000000400, 1.000000000000000000 ) ) ;
#164 = LOCAL_TIME ( 14, 16, 13.00000000000000000, #130 ) ;
#165 = CARTESIAN_POINT ( 'NONE',  ( -12.50000000000000700, -12.50000000000000400, 1.000000000000000000 ) ) ;
#166 = ADVANCED_FACE ( 'NONE', ( #13 ), #231, .F. ) ;
#167 = EDGE_CURVE ( 'NONE', #189, #236, #56, .T. ) ;
#168 = VECTOR ( 'NONE', #230, 1000.000000000000000 ) ;
#169 = UNCERTAINTY_MEASURE_WITH_UNIT (LENGTH_MEASURE( 1.000000000000000100E-005 ), #38, 'distance_accuracy_value', 'NONE');
#170 = APPROVAL_STATUS ( 'not_yet_approved' ) ;
#171 = LINE ( 'NONE', #191, #118 ) ;
#172 = CC_DESIGN_PERSON_AND_ORGANIZATION_ASSIGNMENT ( #217, #184, ( #117 ) ) ;
#173 = CC_DESIGN_APPROVAL ( #176, ( #55 ) ) ;
#174 = ORIENTED_EDGE ( 'NONE', *, *, #48, .F. ) ;
#175 = LOCAL_TIME ( 14, 16, 13.00000000000000000, #11 ) ;
#176 = APPROVAL ( #170, 'UNSPECIFIED' ) ;
#177 = AXIS2_PLACEMENT_3D ( 'NONE', #208, #228, #142 ) ;
#178 = EDGE_LOOP ( 'NONE', ( #21, #74, #6, #135 ) ) ;
#179 = PERSON_AND_ORGANIZATION_ROLE ( 'design_owner' ) ;
#180 = ORIENTED_EDGE ( 'NONE', *, *, #75, .F. ) ;
#181 = APPLICATION_CONTEXT ( 'configuration controlled 3d designs of mechanical parts and assemblies' ) ;
#182 = CC_DESIGN_SECURITY_CLASSIFICATION ( #55, ( #117 ) ) ;
#183 = PRODUCT_DEFINITION ( 'UNKNOWN', '', #117, #93 ) ;
#184 = PERSON_AND_ORGANIZATION_ROLE ( 'creator' ) ;
#185 = DATE_AND_TIME ( #229, #102 ) ;
#186 = EDGE_LOOP ( 'NONE', ( #88, #235, #26, #197 ) ) ;
#187 = CALENDAR_DATE ( 2017, 16, 10 ) ;
#188 = ORGANIZATION ( 'UNSPECIFIED', 'UNSPECIFIED', '' ) ;
#189 = VERTEX_POINT ( 'NONE', #61 ) ;
#190 = CC_DESIGN_PERSON_AND_ORGANIZATION_ASSIGNMENT ( #202, #129, ( #117 ) ) ;
#191 = CARTESIAN_POINT ( 'NONE',  ( -12.50000000000000700, -12.50000000000000400, 1.000000000000000000 ) ) ;
#192 = ORIENTED_EDGE ( 'NONE', *, *, #116, .F. ) ;
#193 = CARTESIAN_POINT ( 'NONE',  ( 12.49999999999999300, -12.50000000000000400, 1.000000000000000000 ) ) ;
#194 = APPLICATION_CONTEXT ( 'configuration controlled 3d designs of mechanical parts and assemblies' ) ;
#195 = CARTESIAN_POINT ( 'NONE',  ( -12.50000000000000700, -12.50000000000000400, 1.000000000000000000 ) ) ;
#196 = PERSON_AND_ORGANIZATION ( #9, #188 ) ;
#197 = ORIENTED_EDGE ( 'NONE', *, *, #126, .T. ) ;
#198 = DIRECTION ( 'NONE',  ( -0.0000000000000000000, -1.000000000000000000, -0.0000000000000000000 ) ) ;
#199 = DIRECTION ( 'NONE',  ( 1.000000000000000000, 0.0000000000000000000, 0.0000000000000000000 ) ) ;
#200 = APPROVAL_ROLE ( '' ) ;
#201 = DATE_AND_TIME ( #218, #78 ) ;
#202 = PERSON_AND_ORGANIZATION ( #9, #188 ) ;
#203 = VECTOR ( 'NONE', #125, 1000.000000000000000 ) ;
#204 = LINE ( 'NONE', #165, #154 ) ;
#205 = APPROVAL_DATE_TIME ( #201, #176 ) ;
#206 = PERSON_AND_ORGANIZATION ( #9, #188 ) ;
#207 = EDGE_CURVE ( 'NONE', #152, #30, #204, .T. ) ;
#208 = CARTESIAN_POINT ( 'NONE',  ( -12.50000000000000700, 12.49999999999999600, 1.000000000000000000 ) ) ;
#209 = CARTESIAN_POINT ( 'NONE',  ( 12.49999999999999300, -12.50000000000000400, 1.000000000000000000 ) ) ;
#210 = LINE ( 'NONE', #193, #60 ) ;
#211 = PLANE ( 'NONE',  #87 ) ;
#212 = DIRECTION ( 'NONE',  ( 0.0000000000000000000, 0.0000000000000000000, -1.000000000000000000 ) ) ;
#213 = DIRECTION ( 'NONE',  ( 0.0000000000000000000, 0.0000000000000000000, 1.000000000000000000 ) ) ;
#214 = ORIENTED_EDGE ( 'NONE', *, *, #167, .F. ) ;
#215 = ORIENTED_EDGE ( 'NONE', *, *, #109, .T. ) ;
#216 = AXIS2_PLACEMENT_3D ( 'NONE', #122, #212, #107 ) ;
#217 = PERSON_AND_ORGANIZATION ( #9, #188 ) ;
#218 = CALENDAR_DATE ( 2017, 16, 10 ) ;
#219 = PERSON_AND_ORGANIZATION ( #9, #188 ) ;
#220 = EDGE_LOOP ( 'NONE', ( #233, #47, #32, #1 ) ) ;
#221 = EDGE_CURVE ( 'NONE', #14, #95, #147, .T. ) ;
#222 = DATE_AND_TIME ( #146, #40 ) ;
#223 = VECTOR ( 'NONE', #199, 1000.000000000000000 ) ;
#224 = PLANE ( 'NONE',  #155 ) ;
#225 = CARTESIAN_POINT ( 'NONE',  ( 0.0000000000000000000, 0.0000000000000000000, 0.0000000000000000000 ) ) ;
#226 = DIRECTION ( 'NONE',  ( 0.0000000000000000000, 0.0000000000000000000, -1.000000000000000000 ) ) ;
#227 = EDGE_CURVE ( 'NONE', #30, #136, #131, .T. ) ;
#228 = DIRECTION ( 'NONE',  ( 0.0000000000000000000, -1.000000000000000000, 0.0000000000000000000 ) ) ;
#229 = CALENDAR_DATE ( 2017, 16, 10 ) ;
#230 = DIRECTION ( 'NONE',  ( 0.0000000000000000000, 1.000000000000000000, 0.0000000000000000000 ) ) ;
#231 = PLANE ( 'NONE',  #216 ) ;
#232 = DIRECTION ( 'NONE',  ( 0.0000000000000000000, -0.0000000000000000000, 1.000000000000000000 ) ) ;
#233 = ORIENTED_EDGE ( 'NONE', *, *, #48, .T. ) ;
#234 = SHAPE_DEFINITION_REPRESENTATION ( #108, #98 ) ;
#235 = ORIENTED_EDGE ( 'NONE', *, *, #39, .F. ) ;
#236 = VERTEX_POINT ( 'NONE', #22 ) ;
#237 = LINE ( 'NONE', #36, #111 ) ;
ENDSEC;
END-ISO-10303-21;
