ISO-10303-21;
HEADER;
FILE_DESCRIPTION (( 'STEP AP214' ),
    '1' );
FILE_NAME ('PA-1-2-500.STEP',
    '2019-05-01T06:39:27',
    ( '' ),
    ( '' ),
    'SwSTEP 2.0',
    'SolidWorks 2017',
    '' );
FILE_SCHEMA (( 'AUTOMOTIVE_DESIGN' ));
ENDSEC;

DATA;
#1 = CARTESIAN_POINT ( 'NONE',  ( 0.0000000000000000000, 0.01700000000000000100, 0.0000000000000000000 ) ) ;
#2 = EDGE_CURVE ( 'NONE', #13, #200, #152, .T. ) ;
#3 =( NAMED_UNIT ( * ) PLANE_ANGLE_UNIT ( ) SI_UNIT ( $, .RADIAN. ) );
#4 = CARTESIAN_POINT ( 'NONE',  ( 3.061616997868380600E-017, 0.0000000000000000000, 0.2499999999999997800 ) ) ;
#5 = CIRCLE ( 'NONE', #175, 4.765000000000000600 ) ;
#6 = SURFACE_STYLE_USAGE ( .BOTH. , #163 ) ;
#7 = EDGE_CURVE ( 'NONE', #80, #191, #188, .T. ) ;
#8 = STYLED_ITEM ( 'NONE', ( #72 ), #48 ) ;
#9 = ORIENTED_EDGE ( 'NONE', *, *, #29, .F. ) ;
#10 = APPLICATION_CONTEXT ( 'automotive_design' ) ;
#11 = ADVANCED_FACE ( 'NONE', ( #73 ), #140, .T. ) ;
#12 = UNCERTAINTY_MEASURE_WITH_UNIT (LENGTH_MEASURE( 1.000000000000000100E-005 ), #45, 'distance_accuracy_value', 'NONE');
#13 = VERTEX_POINT ( 'NONE', #33 ) ;
#14 = AXIS2_PLACEMENT_3D ( 'NONE', #199, #169, #24 ) ;
#15 = PRODUCT_DEFINITION_CONTEXT ( 'detailed design', #10, 'design' ) ;
#16 = DIRECTION ( 'NONE',  ( -0.0000000000000000000, -1.000000000000000000, -0.0000000000000000000 ) ) ;
#17 = EDGE_CURVE ( 'NONE', #191, #80, #108, .T. ) ;
#18 = ORIENTED_EDGE ( 'NONE', *, *, #7, .F. ) ;
#19 = CARTESIAN_POINT ( 'NONE',  ( 0.0000000000000000000, 0.01700000000000000100, -4.765000000000000600 ) ) ;
#20 = DIRECTION ( 'NONE',  ( -0.0000000000000000000, -1.000000000000000000, -0.0000000000000000000 ) ) ;
#21 = DIRECTION ( 'NONE',  ( -0.0000000000000000000, -1.000000000000000000, -0.0000000000000000000 ) ) ;
#22 = PRESENTATION_STYLE_ASSIGNMENT (( #6 ) ) ;
#23 = SURFACE_STYLE_USAGE ( .BOTH. , #113 ) ;
#24 = DIRECTION ( 'NONE',  ( 0.0000000000000000000, 0.0000000000000000000, 1.000000000000000000 ) ) ;
#25 = ORIENTED_EDGE ( 'NONE', *, *, #179, .F. ) ;
#26 =( NAMED_UNIT ( * ) PLANE_ANGLE_UNIT ( ) SI_UNIT ( $, .RADIAN. ) );
#27 = CYLINDRICAL_SURFACE ( 'NONE', #164, 0.2499999999999997800 ) ;
#28 = VERTEX_POINT ( 'NONE', #55 ) ;
#29 = EDGE_CURVE ( 'NONE', #101, #74, #65, .T. ) ;
#30 = CARTESIAN_POINT ( 'NONE',  ( 0.0000000000000000000, 0.0000000000000000000, 0.0000000000000000000 ) ) ;
#31 = AXIS2_PLACEMENT_3D ( 'NONE', #54, #71, #123 ) ;
#32 = CARTESIAN_POINT ( 'NONE',  ( 0.0000000000000000000, 0.01700000000000000100, 0.0000000000000000000 ) ) ;
#33 = CARTESIAN_POINT ( 'NONE',  ( 0.0000000000000000000, 0.0000000000000000000, -4.765000000000000600 ) ) ;
#34 = DIRECTION ( 'NONE',  ( -0.0000000000000000000, -1.000000000000000000, -0.0000000000000000000 ) ) ;
#35 = AXIS2_PLACEMENT_3D ( 'NONE', #75, #86, #100 ) ;
#36 = DIRECTION ( 'NONE',  ( -0.0000000000000000000, -1.000000000000000000, -0.0000000000000000000 ) ) ;
#37 = AXIS2_PLACEMENT_3D ( 'NONE', #202, #178, #102 ) ;
#38 = SHAPE_DEFINITION_REPRESENTATION ( #69, #48 ) ;
#39 = LINE ( 'NONE', #125, #87 ) ;
#40 = CARTESIAN_POINT ( 'NONE',  ( 3.061616997868380600E-017, 0.01700000000000000100, 0.2499999999999997800 ) ) ;
#41 = ADVANCED_FACE ( 'NONE', ( #176 ), #93, .T. ) ;
#42 = FACE_OUTER_BOUND ( 'NONE', #132, .T. ) ;
#43 = EDGE_CURVE ( 'NONE', #28, #200, #51, .T. ) ;
#44 = ORIENTED_EDGE ( 'NONE', *, *, #173, .T. ) ;
#45 =( LENGTH_UNIT ( ) NAMED_UNIT ( * ) SI_UNIT ( .MILLI., .METRE. ) );
#46 = DIRECTION ( 'NONE',  ( 0.0000000000000000000, 0.0000000000000000000, 1.000000000000000000 ) ) ;
#47 = COLOUR_RGB ( '',0.0000000000000000000, 0.0000000000000000000, 0.0000000000000000000 ) ;
#48 = ADVANCED_BREP_SHAPE_REPRESENTATION ( 'PA-1-2-500', ( #139, #183 ), #114 ) ;
#49 = ORIENTED_EDGE ( 'NONE', *, *, #149, .T. ) ;
#50 = FACE_OUTER_BOUND ( 'NONE', #184, .T. ) ;
#51 = LINE ( 'NONE', #192, #99 ) ;
#52 = ORIENTED_EDGE ( 'NONE', *, *, #7, .T. ) ;
#53 = EDGE_CURVE ( 'NONE', #28, #168, #5, .T. ) ;
#54 = CARTESIAN_POINT ( 'NONE',  ( 0.0000000000000000000, 0.01700000000000000100, 0.0000000000000000000 ) ) ;
#55 = CARTESIAN_POINT ( 'NONE',  ( 5.835441997937138100E-016, 0.01700000000000000100, 4.765000000000000600 ) ) ;
#56 = VECTOR ( 'NONE', #170, 1000.000000000000000 ) ;
#57 = EDGE_LOOP ( 'NONE', ( #171, #110 ) ) ;
#58 = DIRECTION ( 'NONE',  ( 0.0000000000000000000, 0.0000000000000000000, -1.000000000000000000 ) ) ;
#59 = FACE_OUTER_BOUND ( 'NONE', #57, .T. ) ;
#60 = ORIENTED_EDGE ( 'NONE', *, *, #53, .T. ) ;
#61 = DIRECTION ( 'NONE',  ( 0.0000000000000000000, -0.0000000000000000000, 1.000000000000000000 ) ) ;
#62 = CIRCLE ( 'NONE', #91, 4.765000000000000600 ) ;
#63 = APPLICATION_CONTEXT ( 'automotive_design' ) ;
#64 = CARTESIAN_POINT ( 'NONE',  ( 0.0000000000000000000, 0.01700000000000000100, -0.2499999999999997800 ) ) ;
#65 = CIRCLE ( 'NONE', #148, 0.2499999999999997800 ) ;
#66 = COLOUR_RGB ( '',0.0000000000000000000, 0.0000000000000000000, 0.0000000000000000000 ) ;
#67 =( GEOMETRIC_REPRESENTATION_CONTEXT ( 3 ) GLOBAL_UNCERTAINTY_ASSIGNED_CONTEXT ( ( #98 ) ) GLOBAL_UNIT_ASSIGNED_CONTEXT ( ( #103, #3, #161 ) ) REPRESENTATION_CONTEXT ( 'NONE', 'WORKASPACE' ) );
#68 = EDGE_CURVE ( 'NONE', #168, #28, #84, .T. ) ;
#69 = PRODUCT_DEFINITION_SHAPE ( 'NONE', 'NONE',  #203 ) ;
#70 = PRESENTATION_LAYER_ASSIGNMENT (  '', '', ( #8 ) ) ;
#71 = DIRECTION ( 'NONE',  ( 0.0000000000000000000, 1.000000000000000000, 0.0000000000000000000 ) ) ;
#72 = PRESENTATION_STYLE_ASSIGNMENT (( #23 ) ) ;
#73 = FACE_OUTER_BOUND ( 'NONE', #147, .T. ) ;
#74 = VERTEX_POINT ( 'NONE', #4 ) ;
#75 = CARTESIAN_POINT ( 'NONE',  ( 0.0000000000000000000, 0.01700000000000000100, 0.0000000000000000000 ) ) ;
#76 = DIRECTION ( 'NONE',  ( 0.0000000000000000000, 1.000000000000000000, 0.0000000000000000000 ) ) ;
#77 = DIRECTION ( 'NONE',  ( 0.0000000000000000000, 0.0000000000000000000, 1.000000000000000000 ) ) ;
#78 = ORIENTED_EDGE ( 'NONE', *, *, #53, .F. ) ;
#79 = DIRECTION ( 'NONE',  ( 0.0000000000000000000, 1.000000000000000000, 0.0000000000000000000 ) ) ;
#80 = VERTEX_POINT ( 'NONE', #40 ) ;
#81 = CARTESIAN_POINT ( 'NONE',  ( 5.835441997937138100E-016, 0.0000000000000000000, 4.765000000000000600 ) ) ;
#82 = AXIS2_PLACEMENT_3D ( 'NONE', #1, #16, #154 ) ;
#83 = EDGE_CURVE ( 'NONE', #191, #101, #39, .T. ) ;
#84 = CIRCLE ( 'NONE', #97, 4.765000000000000600 ) ;
#85 = ADVANCED_FACE ( 'NONE', ( #42, #127 ), #196, .T. ) ;
#86 = DIRECTION ( 'NONE',  ( 0.0000000000000000000, 1.000000000000000000, 0.0000000000000000000 ) ) ;
#87 = VECTOR ( 'NONE', #21, 1000.000000000000000 ) ;
#88 = CARTESIAN_POINT ( 'NONE',  ( 0.0000000000000000000, 0.01700000000000000100, 0.0000000000000000000 ) ) ;
#89 = VECTOR ( 'NONE', #197, 1000.000000000000000 ) ;
#90 = EDGE_LOOP ( 'NONE', ( #181, #44 ) ) ;
#91 = AXIS2_PLACEMENT_3D ( 'NONE', #159, #208, #109 ) ;
#92 = FILL_AREA_STYLE_COLOUR ( '', #47 ) ;
#93 = CYLINDRICAL_SURFACE ( 'NONE', #82, 4.765000000000000600 ) ;
#94 = DIRECTION ( 'NONE',  ( 0.0000000000000000000, 0.0000000000000000000, -1.000000000000000000 ) ) ;
#95 = PRODUCT_DEFINITION_FORMATION_WITH_SPECIFIED_SOURCE ( 'ANY', '', #212, .NOT_KNOWN. ) ;
#96 =( NAMED_UNIT ( * ) PLANE_ANGLE_UNIT ( ) SI_UNIT ( $, .RADIAN. ) );
#97 = AXIS2_PLACEMENT_3D ( 'NONE', #105, #76, #194 ) ;
#98 = UNCERTAINTY_MEASURE_WITH_UNIT (LENGTH_MEASURE( 1.000000000000000100E-005 ), #103, 'distance_accuracy_value', 'NONE');
#99 = VECTOR ( 'NONE', #36, 1000.000000000000000 ) ;
#100 = DIRECTION ( 'NONE',  ( 0.0000000000000000000, 0.0000000000000000000, 1.000000000000000000 ) ) ;
#101 = VERTEX_POINT ( 'NONE', #142 ) ;
#102 = DIRECTION ( 'NONE',  ( 0.0000000000000000000, 0.0000000000000000000, 1.000000000000000000 ) ) ;
#103 =( LENGTH_UNIT ( ) NAMED_UNIT ( * ) SI_UNIT ( .MILLI., .METRE. ) );
#104 = ADVANCED_FACE ( 'NONE', ( #50 ), #27, .F. ) ;
#105 = CARTESIAN_POINT ( 'NONE',  ( 0.0000000000000000000, 0.01700000000000000100, 0.0000000000000000000 ) ) ;
#106 = AXIS2_PLACEMENT_3D ( 'NONE', #88, #207, #195 ) ;
#107 = FILL_AREA_STYLE ('',( #182 ) ) ;
#108 = CIRCLE ( 'NONE', #35, 0.2499999999999997800 ) ;
#109 = DIRECTION ( 'NONE',  ( 0.0000000000000000000, 0.0000000000000000000, 1.000000000000000000 ) ) ;
#110 = ORIENTED_EDGE ( 'NONE', *, *, #149, .F. ) ;
#111 = APPLICATION_PROTOCOL_DEFINITION ( 'draft international standard', 'automotive_design', 1998, #63 ) ;
#112 = CARTESIAN_POINT ( 'NONE',  ( 3.061616997868380600E-017, 0.01700000000000000100, 0.2499999999999997800 ) ) ;
#113 = SURFACE_SIDE_STYLE ('',( #117 ) ) ;
#114 =( GEOMETRIC_REPRESENTATION_CONTEXT ( 3 ) GLOBAL_UNCERTAINTY_ASSIGNED_CONTEXT ( ( #12 ) ) GLOBAL_UNIT_ASSIGNED_CONTEXT ( ( #45, #96, #135 ) ) REPRESENTATION_CONTEXT ( 'NONE', 'WORKASPACE' ) );
#115 = ORIENTED_EDGE ( 'NONE', *, *, #17, .T. ) ;
#116 = ORIENTED_EDGE ( 'NONE', *, *, #166, .T. ) ;
#117 = SURFACE_STYLE_FILL_AREA ( #210 ) ;
#118 = ORIENTED_EDGE ( 'NONE', *, *, #83, .T. ) ;
#119 = LINE ( 'NONE', #112, #56 ) ;
#120 = ORIENTED_EDGE ( 'NONE', *, *, #43, .F. ) ;
#121 = MECHANICAL_DESIGN_GEOMETRIC_PRESENTATION_REPRESENTATION (  '', ( #8 ), #160 ) ;
#122 = ORIENTED_EDGE ( 'NONE', *, *, #17, .F. ) ;
#123 = DIRECTION ( 'NONE',  ( 0.0000000000000000000, 0.0000000000000000000, 1.000000000000000000 ) ) ;
#124 = CARTESIAN_POINT ( 'NONE',  ( 0.0000000000000000000, 0.01700000000000000100, 0.0000000000000000000 ) ) ;
#125 = CARTESIAN_POINT ( 'NONE',  ( 0.0000000000000000000, 0.01700000000000000100, -0.2499999999999997800 ) ) ;
#126 = CARTESIAN_POINT ( 'NONE',  ( 0.0000000000000000000, 0.01700000000000000100, 0.0000000000000000000 ) ) ;
#127 = FACE_BOUND ( 'NONE', #190, .T. ) ;
#128 = AXIS2_PLACEMENT_3D ( 'NONE', #126, #145, #94 ) ;
#129 = CARTESIAN_POINT ( 'NONE',  ( 0.0000000000000000000, 0.01700000000000000100, -4.765000000000000600 ) ) ;
#130 = DIRECTION ( 'NONE',  ( 0.0000000000000000000, 1.000000000000000000, 0.0000000000000000000 ) ) ;
#131 = APPLICATION_PROTOCOL_DEFINITION ( 'draft international standard', 'automotive_design', 1998, #10 ) ;
#132 = EDGE_LOOP ( 'NONE', ( #153, #60 ) ) ;
#133 = ORIENTED_EDGE ( 'NONE', *, *, #68, .F. ) ;
#134 =( NAMED_UNIT ( * ) SI_UNIT ( $, .STERADIAN. ) SOLID_ANGLE_UNIT ( ) );
#135 =( NAMED_UNIT ( * ) SI_UNIT ( $, .STERADIAN. ) SOLID_ANGLE_UNIT ( ) );
#136 = PRODUCT_RELATED_PRODUCT_CATEGORY ( 'part', '', ( #212 ) ) ;
#137 = PLANE ( 'NONE',  #206 ) ;
#138 = LINE ( 'NONE', #19, #89 ) ;
#139 = MANIFOLD_SOLID_BREP ( 'Boss-Extrude1', #174 ) ;
#140 = CYLINDRICAL_SURFACE ( 'NONE', #156, 4.765000000000000600 ) ;
#141 = EDGE_LOOP ( 'NONE', ( #25, #52, #118, #189 ) ) ;
#142 = CARTESIAN_POINT ( 'NONE',  ( 0.0000000000000000000, 0.0000000000000000000, -0.2499999999999997800 ) ) ;
#143 = SURFACE_STYLE_FILL_AREA ( #107 ) ;
#144 = ORIENTED_EDGE ( 'NONE', *, *, #2, .T. ) ;
#145 = DIRECTION ( 'NONE',  ( -0.0000000000000000000, -1.000000000000000000, -0.0000000000000000000 ) ) ;
#146 = CARTESIAN_POINT ( 'NONE',  ( 0.0000000000000000000, 0.0000000000000000000, 0.0000000000000000000 ) ) ;
#147 = EDGE_LOOP ( 'NONE', ( #78, #167, #49, #177 ) ) ;
#148 = AXIS2_PLACEMENT_3D ( 'NONE', #30, #79, #158 ) ;
#149 = EDGE_CURVE ( 'NONE', #200, #13, #62, .T. ) ;
#150 = UNCERTAINTY_MEASURE_WITH_UNIT (LENGTH_MEASURE( 1.000000000000000100E-005 ), #165, 'distance_accuracy_value', 'NONE');
#151 = STYLED_ITEM ( 'NONE', ( #22 ), #139 ) ;
#152 = CIRCLE ( 'NONE', #37, 4.765000000000000600 ) ;
#153 = ORIENTED_EDGE ( 'NONE', *, *, #68, .T. ) ;
#154 = DIRECTION ( 'NONE',  ( 0.0000000000000000000, 0.0000000000000000000, -1.000000000000000000 ) ) ;
#155 = DIRECTION ( 'NONE',  ( 0.0000000000000000000, 0.0000000000000000000, -1.000000000000000000 ) ) ;
#156 = AXIS2_PLACEMENT_3D ( 'NONE', #32, #34, #155 ) ;
#157 = EDGE_LOOP ( 'NONE', ( #120, #133, #116, #144 ) ) ;
#158 = DIRECTION ( 'NONE',  ( 0.0000000000000000000, 0.0000000000000000000, 1.000000000000000000 ) ) ;
#159 = CARTESIAN_POINT ( 'NONE',  ( 0.0000000000000000000, 0.0000000000000000000, 0.0000000000000000000 ) ) ;
#160 =( GEOMETRIC_REPRESENTATION_CONTEXT ( 3 ) GLOBAL_UNCERTAINTY_ASSIGNED_CONTEXT ( ( #150 ) ) GLOBAL_UNIT_ASSIGNED_CONTEXT ( ( #165, #26, #134 ) ) REPRESENTATION_CONTEXT ( 'NONE', 'WORKASPACE' ) );
#161 =( NAMED_UNIT ( * ) SI_UNIT ( $, .STERADIAN. ) SOLID_ANGLE_UNIT ( ) );
#162 = ORIENTED_EDGE ( 'NONE', *, *, #179, .T. ) ;
#163 = SURFACE_SIDE_STYLE ('',( #143 ) ) ;
#164 = AXIS2_PLACEMENT_3D ( 'NONE', #124, #20, #58 ) ;
#165 =( LENGTH_UNIT ( ) NAMED_UNIT ( * ) SI_UNIT ( .MILLI., .METRE. ) );
#166 = EDGE_CURVE ( 'NONE', #168, #13, #138, .T. ) ;
#167 = ORIENTED_EDGE ( 'NONE', *, *, #43, .T. ) ;
#168 = VERTEX_POINT ( 'NONE', #129 ) ;
#169 = DIRECTION ( 'NONE',  ( 0.0000000000000000000, 1.000000000000000000, 0.0000000000000000000 ) ) ;
#170 = DIRECTION ( 'NONE',  ( -0.0000000000000000000, -1.000000000000000000, -0.0000000000000000000 ) ) ;
#171 = ORIENTED_EDGE ( 'NONE', *, *, #2, .F. ) ;
#172 = MECHANICAL_DESIGN_GEOMETRIC_PRESENTATION_REPRESENTATION (  '', ( #151 ), #67 ) ;
#173 = EDGE_CURVE ( 'NONE', #74, #101, #201, .T. ) ;
#174 = CLOSED_SHELL ( 'NONE', ( #104, #11, #85, #198, #41, #187 ) ) ;
#175 = AXIS2_PLACEMENT_3D ( 'NONE', #205, #130, #77 ) ;
#176 = FACE_OUTER_BOUND ( 'NONE', #157, .T. ) ;
#177 = ORIENTED_EDGE ( 'NONE', *, *, #166, .F. ) ;
#178 = DIRECTION ( 'NONE',  ( 0.0000000000000000000, 1.000000000000000000, 0.0000000000000000000 ) ) ;
#179 = EDGE_CURVE ( 'NONE', #80, #74, #119, .T. ) ;
#180 = FACE_BOUND ( 'NONE', #90, .T. ) ;
#181 = ORIENTED_EDGE ( 'NONE', *, *, #29, .T. ) ;
#182 = FILL_AREA_STYLE_COLOUR ( '', #66 ) ;
#183 = AXIS2_PLACEMENT_3D ( 'NONE', #146, #46, #209 ) ;
#184 = EDGE_LOOP ( 'NONE', ( #115, #162, #9, #204 ) ) ;
#185 = PRODUCT_CONTEXT ( 'NONE', #63, 'mechanical' ) ;
#186 = CYLINDRICAL_SURFACE ( 'NONE', #128, 0.2499999999999997800 ) ;
#187 = ADVANCED_FACE ( 'NONE', ( #193 ), #186, .F. ) ;
#188 = CIRCLE ( 'NONE', #31, 0.2499999999999997800 ) ;
#189 = ORIENTED_EDGE ( 'NONE', *, *, #173, .F. ) ;
#190 = EDGE_LOOP ( 'NONE', ( #122, #18 ) ) ;
#191 = VERTEX_POINT ( 'NONE', #64 ) ;
#192 = CARTESIAN_POINT ( 'NONE',  ( 5.835441997937138100E-016, 0.01700000000000000100, 4.765000000000000600 ) ) ;
#193 = FACE_OUTER_BOUND ( 'NONE', #141, .T. ) ;
#194 = DIRECTION ( 'NONE',  ( 0.0000000000000000000, 0.0000000000000000000, 1.000000000000000000 ) ) ;
#195 = DIRECTION ( 'NONE',  ( 0.0000000000000000000, -0.0000000000000000000, 1.000000000000000000 ) ) ;
#196 = PLANE ( 'NONE',  #106 ) ;
#197 = DIRECTION ( 'NONE',  ( -0.0000000000000000000, -1.000000000000000000, -0.0000000000000000000 ) ) ;
#198 = ADVANCED_FACE ( 'NONE', ( #59, #180 ), #137, .F. ) ;
#199 = CARTESIAN_POINT ( 'NONE',  ( 0.0000000000000000000, 0.0000000000000000000, 0.0000000000000000000 ) ) ;
#200 = VERTEX_POINT ( 'NONE', #81 ) ;
#201 = CIRCLE ( 'NONE', #14, 0.2499999999999997800 ) ;
#202 = CARTESIAN_POINT ( 'NONE',  ( 0.0000000000000000000, 0.0000000000000000000, 0.0000000000000000000 ) ) ;
#203 = PRODUCT_DEFINITION ( 'UNKNOWN', '', #95, #15 ) ;
#204 = ORIENTED_EDGE ( 'NONE', *, *, #83, .F. ) ;
#205 = CARTESIAN_POINT ( 'NONE',  ( 0.0000000000000000000, 0.01700000000000000100, 0.0000000000000000000 ) ) ;
#206 = AXIS2_PLACEMENT_3D ( 'NONE', #213, #211, #61 ) ;
#207 = DIRECTION ( 'NONE',  ( 0.0000000000000000000, 1.000000000000000000, 0.0000000000000000000 ) ) ;
#208 = DIRECTION ( 'NONE',  ( 0.0000000000000000000, 1.000000000000000000, 0.0000000000000000000 ) ) ;
#209 = DIRECTION ( 'NONE',  ( 1.000000000000000000, 0.0000000000000000000, 0.0000000000000000000 ) ) ;
#210 = FILL_AREA_STYLE ('',( #92 ) ) ;
#211 = DIRECTION ( 'NONE',  ( 0.0000000000000000000, 1.000000000000000000, 0.0000000000000000000 ) ) ;
#212 = PRODUCT ( 'PA-1-2-500', 'PA-1-2-500', '', ( #185 ) ) ;
#213 = CARTESIAN_POINT ( 'NONE',  ( 0.0000000000000000000, 0.0000000000000000000, 0.0000000000000000000 ) ) ;
#214 = PRESENTATION_LAYER_ASSIGNMENT (  '', '', ( #151 ) ) ;
ENDSEC;
END-ISO-10303-21;
